Strict Standards: Non-static method phpbb_feed_factory::init() should not be called statically in /home/bigroadblues/bigroadblues.com/forum/feed.php on line 66
[phpBB Debug] PHP Notice: in file /feed.php on line 171: Cannot modify header information - headers already sent by (output started at /feed.php:66)
[phpBB Debug] PHP Notice: in file /feed.php on line 172: Cannot modify header information - headers already sent by (output started at /feed.php:66)
Big Road Blues Discussion Forums 2007-04-29T18:03:40+00:00 http://www.bigroadblues.com/forum/feed.php?f=6&t=5812 2007-04-29T18:03:40+00:00 http://www.bigroadblues.com/forum/viewtopic.php?t=5812&p=56985#p56985 <![CDATA[Song For Sonny Liston]]> Statistics: Posted by texas blues — Sun Apr 29, 2007 6:03 pm


]]>
2007-04-29T04:04:52+00:00 http://www.bigroadblues.com/forum/viewtopic.php?t=5812&p=56974#p56974 <![CDATA[Song For Sonny Liston]]>
e------------------------------------------------------
B------------------------------------------------------
G------------------------------------------------------ :
D--2-----------------2---------2---------------------
A--0-0-0-----0---5p-3b-------0-0-0----0--5-4p3p0
E----------3----------------------------3--------------

Statistics: Posted by leftyguitarman — Sun Apr 29, 2007 4:04 am


]]>
2007-04-13T01:11:55+00:00 http://www.bigroadblues.com/forum/viewtopic.php?t=5812&p=56131#p56131 <![CDATA[Song For Sonny Liston]]>
Came up with this so far. I cant seem to find the other note that completes the main riff.

e----------------------------------------
B----------------------------------------
G----------------------------------------
D--2----------2--------------------------
A--0-0-0-----0-------------------------
E----------3-----------------------------

Statistics: Posted by leftyguitarman — Fri Apr 13, 2007 1:11 am


]]>